Arpeggios From Hell, anyone?!? - Jemsite
Players & Bands, Music & Sounds, Tours & Jams, Lessons & Theory! Covers everything from discussing musicians, bands, music, albums, videos, local jams & sharing multimedia links (no illegal file sharing please).

 
LinkBack Thread Tools Display Modes
post #1 of 3 (permalink) Old 04-20-2003, 10:47 AM Thread Starter
 
Join Date: Jan 2003
Location: Finland, H*LL YEAH!
Posts: 790
Arpeggios From Hell, anyone?!?

Does anyone have a tab for this Yngwie-tune?? I've only the "chorus" of the song and don't wanna figure out the rest of it. WOuld be nice!
Ad_Astra is offline  
Sponsored Links
Advertisement
 
post #2 of 3 (permalink) Old 05-03-2003, 06:16 PM
 
Join Date: May 2003
Posts: 2
Arepggios from Hell

Guitar Tuned - EbAbDbGbBbEb


Code:
Arpeggios from Hell


                                            
|--10h-7-----------7--9h-6--------6--|
|---------7-----7-----------7----7-----|
|------------7-----------------6-------|
|---------------------------------------|
|---------------------------------------|
|---------------------------------------|


                                        
|--10h-7-----------7--9h-6--------6--|
|---------7-----7-----------7----7-----|
|------------7-----------------6--------|
|---------------------------------------|
|---------------------------------------|
|---------------------------------------|


                                           
|--10h-7-----------7--12h-9---------9--|
|---------7-----7------------10---10-----|
|------------7-------------------9--------|
|------------------------------------------|
|------------------------------------------|
|------------------------------------------|


                                                
|--14h-10--------------10--12h-9--------9--|
|----------10------10-------------10---10----|
|--------------11---------------------9--------|
|-----------------------------------------------|
|-----------------------------------------------|
|-----------------------------------------------|


                                                   
|--14h-10--------------10--14h-11---------11--|
|----------10------10--------------12----12-----|
|--------------11----------------------11---------|
|--------------------------------------------------|
|--------------------------------------------------|
|--------------------------------------------------|


                                                   
|--15h-12--------------12--14h-11---------11--|
|----------12------12--------------12----12-----|
|--------------12----------------------11---------|
|--------------------------------------------------|
|--------------------------------------------------|
|--------------------------------------------------|


                                                   
|--15h-12--------------12--16h-13----------13--|
|----------12------12--------------15----15------|
|--------------12----------------------16----------|
|---------------------------------------------------|
|---------------------------------------------------|
|---------------------------------------------------|


                                                   
|--19h-14--------------14--19h-14---------19--|
|----------14------14--------------14----14------|
|--------------16----------------------16---------|
|--------------------------------------------------|
|--------------------------------------------------|

                                                   
|--18h-14--------------14--18h-14---------14--|
|----------14------14--------------14----14------|
|--------------15----------------------15---------|
|--------------------------------------------------|
|--------------------------------------------------|
|--------------------------------------------------|


                                                                                
|--10h-7---------7--9h-6-----------6--|
|---------7----7-----------7-----7------|
|------------7-----------------6---------|
|-----------------------------------------|
|-----------------------------------------|
|-----------------------------------------|

|--10h-7-----------7--9h-6-------6-|
|--------7-----7-----------7---7-----|
|-----------7---------------6---------|
|--------------------------------------|
|--------------------------------------|
|--------------------------------------|



                                           
|--10h-7-----------7--12h-9----------9--|
|---------7-----7------------10----10-----|
|------------7-------------------9---------|
|-------------------------------------------|
|-------------------------------------------|
|-------------------------------------------|


                                                
|--14h-10--------------10--12h-9---------9--|
|----------10------10-------------10---10-----|
|--------------11---------------------9---------|
|------------------------------------------------|
|------------------------------------------------|
|------------------------------------------------|


                                                   
|--14h-10--------------10--14h-11---------11--|
|----------10------10--------------12----12-----|
|--------------11----------------------11---------|
|--------------------------------------------------|
|--------------------------------------------------|
|--------------------------------------------------|


                                                   
|--15h-12--------------12--14h-11----------11--|
|----------12------12--------------12----12------|
|--------------12----------------------11---------|
|--------------------------------------------------|
|--------------------------------------------------|
|--------------------------------------------------|


                                                   
|--15h-12--------------12--16h-13---------13--|
|----------12------12--------------15----15------|
|--------------12----------------------16---------|
|--------------------------------------------------|
|--------------------------------------------------|
|--------------------------------------------------|


                                                   
|--19h-14--------------14--19h-14---------19--|
|----------14------14--------------14----14------|
|--------------16----------------------16---------|
|--------------------------------------------------|
|--------------------------------------------------|
|--------------------------------------------------|


                                                   
|--18h-14--------------14--18h-14---------14--|
|----------14------14--------------14----14-----|
|--------------15----------------------15--------|
|--------------------------------------------------|
|--------------------------------------------------|
|--------------------------------------------------|


                                                   
|--19h-14--------------14--19h-14---------18--|
|----------14------14--------------14----14-----|
|--------------16----------------------16---------|
|--------------------------------------------------|
|--------------------------------------------------|
|--------------------------------------------------|


                                          
|--21h-18------------18h-21-----21~--|
|----------19-----19----------19--------|
|--------------18------------------------|
|-----------------------------------------|
|-----------------------------------------|
|-----------------------------------------|
DistortedRiff is offline  
post #3 of 3 (permalink) Old 05-06-2003, 08:41 AM Thread Starter
 
Join Date: Jan 2003
Location: Finland, H*LL YEAH!
Posts: 790
Re: Arepggios from Hell

Thanx but that's the interlude of "Demon Driver". I mean the song "Moltosa Arpegiosa" (more familiar as "Arpeggios From hell) from the "War To End All Wars" album. Almost as great song as Trilogy Suite.
Ad_Astra is offline  
Reply

Quick Reply
Message:
Options

Register Now



In order to be able to post messages on the Jemsite forums, you must first register.
Please enter your desired user name, your email address and other required details in the form below.

User Name:
Password
Please enter a password for your user account. Note that passwords are case-sensitive.

Password:


Confirm Password:
Email Address

IMPORTANT: You will be required to activate your account so please ensure that your email address is correct.

If you do not receive your activation check your spam folder before using the CONTACT US form (at the bottom right of each page).



Email Address:
OR

Log-in











Thread Tools
Show Printable Version Show Printable Version
Email this Page Email this Page
Display Modes
Linear Mode Linear Mode



Similar Threads
Thread Thread Starter Forum Replies Last Post
Tapping Arpeggios Lesson For All Michael RT Players & Bands, Music & Sounds, Tours & Jams, Lessons & Theory! 6 11-02-2010 11:03 AM
arpeggios Rash Players & Bands, Music & Sounds, Tours & Jams, Lessons & Theory! 7 12-19-2003 04:47 AM
Crazy Nuno tapping arpeggios The Reaper Players & Bands, Music & Sounds, Tours & Jams, Lessons & Theory! 2 11-18-2003 12:15 AM
how to find arpeggios Pee Players & Bands, Music & Sounds, Tours & Jams, Lessons & Theory! 3 11-21-2002 09:19 AM
I live in JEM hell. - Actually, it's Ibanez hell, and my ban Jeroenn Ibanez JEM, UV, JS & Other Signature Models 19 05-16-2001 12:08 PM

Posting Rules  
You may post new threads
You may post replies
You may not post attachments
You may not edit your posts

BB code is On
Smilies are On
[IMG] code is On
HTML code is Off
Trackbacks are On
Pingbacks are On
Refbacks are On

 
For the best viewing experience please update your browser to Google Chrome