Development of your Alternating Picking Guitar Lesson - Jemsite
Players & Bands, Music & Sounds, Tours & Jams, Lessons & Theory! Covers everything from discussing musicians, bands, music, albums, videos, local jams & sharing multimedia links (no illegal file sharing please).

 
LinkBack Thread Tools Display Modes
post #1 of 4 (permalink) Old 01-19-2006, 05:38 PM Thread Starter
 
Join Date: Sep 2004
Posts: 286
Development of your Alternating Picking Guitar Lesson

Killer Alternating Picking Guitar Lesson

--------------------------------------------------------------------------------

What's up Jemsite Long time no see!!..

Here is a great lesson for Development of your Alternating Picking ...

It let's you pick at a great pace and you won't get out of control cause it stays with your left hand...

You use all of your fingers and you get a killer workout...Not tomention..a killer melodie...

Wicked Natos
http://65.254.79.230/audio106.mp3


Code:
Title: Wicked Nato's
Composer: www.joeydahlia.com
Copyright: Copyright ©




E|-0---6---7---9---|-0---10--9---7---|-0---6---7---9---
B|-----------------|-----------------|-----------------|
G|-----------------|-----------------|-----------------|
D|-----------------|-----------------|-----------------|
A|-----------------|-----------------|-----------------|
E|-----------------|-----------------|-----------------|




E|-0---12--10--9---|-0---6---7---9---|-0---14--12--10--|-0---12--10--9---|
B|-----------------|-----------------|-----------------|-----------------|
G|-----------------|-----------------|-----------------|-----------------|
D|-----------------|-----------------|-----------------|-----------------|
A|-----------------|-----------------|-----------------|-----------------|
E|-----------------|-----------------|-----------------|-----------------|



E|-0---10--9---7---|-0---9---7---6---|-0---12--14--15--|-0---15--14--12--|
B|-----------------|-----------------|-----------------|-----------------|
G|-----------------|-----------------|-----------------|-----------------|
D|-----------------|-----------------|-----------------|-----------------|
A|-----------------|-----------------|-----------------|-----------------|
E|-----------------|-----------------|-----------------|-----------------|




E|-0---12--14--15--|-0---17--15--14--|-0---12--14--15--|-0---19--17--15--|
B|-----------------|-----------------|-----------------|-----------------|
G|-----------------|-----------------|-----------------|-----------------|
D|-----------------|-----------------|-----------------|-----------------|
A|-----------------|-----------------|-----------------|-----------------|
E|-----------------|-----------------|-----------------|-----------------|



E|-0---12--14--15--|-0---21--19--17--|-0---19--17--15--|-0---17--15--14--|
B|-----------------|-----------------|-----------------|-----------------|
G|-----------------|-----------------|-----------------|-----------------|
D|-----------------|-----------------|-----------------|-----------------|
A|-----------------|-----------------|-----------------|-----------------|
E|-----------------|-----------------|-----------------|-----------------|



E|-0---15--14--12--|-0---6---7---9---|-0---10--9---7---|-0---6---7---9---|
B|-----------------|-----------------|-----------------|-----------------|
G|-----------------|-----------------|-----------------|-----------------|
D|-----------------|-----------------|-----------------|-----------------|
A|-----------------|-----------------|-----------------|-----------------|
E|-----------------|-----------------|-----------------|-----------------|



E|-0---12--10--9---|-0---6---7---9---|-0---14--12--10--|-0---12--10--9---|
B|-----------------|-----------------|-----------------|-----------------|
G|-----------------|-----------------|-----------------|-----------------|
D|-----------------|-----------------|-----------------|-----------------|
A|-----------------|-----------------|-----------------|-----------------|
E|-----------------|-----------------|-----------------|-----------------|



E|-0---10--9---7---|-0---9---7---6---|-0---7-----------|-----------------|
B|-----------------|-----------------|-----------------|-----------------|
G|-----------------|-----------------|-----------------|-----------------|
D|-----------------|-----------------|-----------------|-----------------|
A|-----------------|-----------------|-----------------|-----------------|
E|-----------------|-----------------|-----------------|-----------------|


Here is some cool Animated Tab,Printable,Change of Keys,Tempo..

(you might have to install plug in)

http://joeydahlia.com/Wnato.htm

Enjoy..

JoeyDahlia
joeydahlia is offline  
Sponsored Links
Advertisement
 
post #2 of 4 (permalink) Old 01-24-2006, 11:55 AM
 
Join Date: Oct 2003
Location: Michigan for now
Posts: 230
Re: Development of your Alternating Picking Guitar Lesson

big BIG drums!!!

Might I add, maybe going for 3 notes and alternating strings? Bet you could make something up cool.

I've noticed since doing chromatics that going to 3 notes is a bitch, because you have to pay more attention to your up and drown strokes.
linthat22 is offline  
post #3 of 4 (permalink) Old 01-24-2006, 07:43 PM
 
Join Date: Jun 2005
Posts: 1,008
Re: Development of your Alternating Picking Guitar Lesson

MM it's not that hard for Alt. picking considering it's only on one string. But it does sound cool.
Ozzdoc is offline  
post #4 of 4 (permalink) Old 01-26-2006, 12:34 AM Thread Starter
 
Join Date: Sep 2004
Posts: 286
Re: Development of your Alternating Picking Guitar Lesson

Quote:
Originally Posted by Ozzdoc
MM it's not that hard for Alt. picking considering it's only on one string. But it does sound cool.
Oh this is a killer lessons,Because your picking hand cannot and will not exceed your left hand....

Your picking hand does move at 1 speed ,but it is controled..

Wax On Wax Off......


LOL ....Hope you enjoyed this Ostinato Lesson...!


JoeyDahlia
joeydahlia is offline  
Reply

Quick Reply
Message:
Options

Register Now



In order to be able to post messages on the Jemsite forums, you must first register.
Please enter your desired user name, your email address and other required details in the form below.

User Name:
Password
Please enter a password for your user account. Note that passwords are case-sensitive.

Password:


Confirm Password:
Email Address

IMPORTANT: You will be required to activate your account so please ensure that your email address is correct.

If you do not receive your activation check your spam folder before using the CONTACT US form (at the bottom right of each page).



Email Address:
OR

Log-in











Thread Tools
Show Printable Version Show Printable Version
Email this Page Email this Page
Display Modes
Linear Mode Linear Mode



Similar Threads
Thread Thread Starter Forum Replies Last Post
This is Why You STILL Suck at Sweep Picking! Vid lesson part 2 HumanFuseBen Players & Bands, Music & Sounds, Tours & Jams, Lessons & Theory! 6 01-29-2014 02:10 AM
New alternate picking lesson bates Players & Bands, Music & Sounds, Tours & Jams, Lessons & Theory! 4 01-23-2014 03:03 PM
Mastodon Capillarian Crest hybrid picking video lesson HumanFuseBen Players & Bands, Music & Sounds, Tours & Jams, Lessons & Theory! 3 10-11-2012 04:57 PM
Chimaira rhythm, muting and picking lesson guitarnoize Players & Bands, Music & Sounds, Tours & Jams, Lessons & Theory! 0 12-09-2009 11:27 PM
Lesson 12: *Pachabel's Canon - sweep picking, tapping, arpeg jem7vwh Players & Bands, Music & Sounds, Tours & Jams, Lessons & Theory! 3 01-11-2005 10:53 PM

Posting Rules  
You may post new threads
You may post replies
You may not post attachments
You may not edit your posts

BB code is On
Smilies are On
[IMG] code is On
HTML code is Off
Trackbacks are On
Pingbacks are On
Refbacks are On

 
For the best viewing experience please update your browser to Google Chrome