Hockey Night In Canada - Jemsite
Players & Bands, Music & Sounds, Tours & Jams, Lessons & Theory! Covers everything from discussing musicians, bands, music, albums, videos, local jams & sharing multimedia links (no illegal file sharing please).

 
LinkBack Thread Tools Display Modes
post #1 of 3 (permalink) Old 02-25-2003, 12:51 PM Thread Starter
 
Join Date: Feb 2003
Posts: 34
Hockey Night In Canada

Last night I was searching the web for a TAB version of The Hockey Night In Canada theme and couldn't find it. So, I decided to figure it out myself.

I notice that there are quite a few "Canadians" on this messageboard so I figured I would share it with 'em.

THEME TO - HOCKEY NIGHT IN CANADA

B Flat

(Actual key is C. Transcribe all up 2 frets to play with recorded version)

Bass Intro

E |--------------|-------------|----------------|
B |--------------|-------------|----------------|
G |--------------|-------------|----------------|
D |--------------|-------------|-------------3--|
A |-----6-6-4---|-----6-6-4--|-----6-6-4-----|
E |-6-6----------|-6-6--------|-6-6------------|

Main Theme
E |---------------------------|-------------------------------|
B |---------------------------|---------------8---------------|
G |-------------10-----------|------------------10-----------|
D |--------8-----------------|---------8----------------------|
A |-8-8-8---10--------------|-8-8-8----10------------------|
E |---------------------------|--------------------------------|


E |----------------------------------------------------------|
B |--------6-----8-9-8------6-7-6----6---------------------|
G |------7--------------8-----------6-------------------------|
D |-8-8------------------------------------------------------|
A |----------------------------------------------------------|
E |----------------------------------------------------------|


(Transcribed by Guitar Wizard - 2003)
Guitar Wizard is offline  
Sponsored Links
Advertisement
 
post #2 of 3 (permalink) Old 03-03-2003, 08:09 PM
 
Join Date: Apr 2001
Location: Nova Scotia, Canada
Posts: 692
LMAO!! Only in Canada!! EH!!
Nice tab! lol You wouldn't believe the number of hours i've spent looking for that tune tabbed out!
Too bad it wasn't in power tab.

Alden
YaYoGakk is offline  
post #3 of 3 (permalink) Old 03-03-2003, 11:55 PM Thread Starter
 
Join Date: Feb 2003
Posts: 34
Yeah, I spent around 2 hours searching the web looking for a tab or free sheet music of it. I then remembered that I had a "Shuffle Demons" version of the theme and dug it out and used my ear. They do a jazz version around this main melody so I didn't TAB out any more of it.

It looks like you have to buy the original sheet music online to get the full version. I found it here http://www.hockeytheme.com/

It is one of those funny themes that when I am noodling on the guitar with a bunch of people around, I play it and everyone laughs...

(Like playing the Batman, The Munsters, Star Trek themes...)

I am glad at least one person here got a laugh out of it. Maybe when I get some time I will do a monster guitar orchestra version of it with like 7 guitars harmonized!
Guitar Wizard is offline  
Reply

Quick Reply
Message:
Options

Register Now



In order to be able to post messages on the Jemsite forums, you must first register.
Please enter your desired user name, your email address and other required details in the form below.

User Name:
Password
Please enter a password for your user account. Note that passwords are case-sensitive.

Password:


Confirm Password:
Email Address

IMPORTANT: You will be required to activate your account so please ensure that your email address is correct.

If you do not receive your activation check your spam folder before using the CONTACT US form (at the bottom right of each page).



Email Address:
OR

Log-in











Thread Tools
Show Printable Version Show Printable Version
Email this Page Email this Page
Display Modes
Linear Mode Linear Mode



Similar Threads
Thread Thread Starter Forum Replies Last Post
Canada vs US in World Jr Hockey today doriangrey Off-topic / Miscellaneous 24 01-08-2011 02:39 PM
Go Habs GO!!!! (The Hockey Thread) jim777 Off-topic / Miscellaneous 85 08-02-2010 06:19 PM
hockey is here! Callery83 Off-topic / Miscellaneous 0 10-13-2008 01:11 PM
New hockey rules... Rotti Off-topic / Miscellaneous 22 01-01-2007 01:55 PM
Hockey is back (yawn) jim777 Off-topic / Miscellaneous 30 07-16-2005 09:53 PM

Posting Rules  
You may post new threads
You may post replies
You may not post attachments
You may not edit your posts

BB code is On
Smilies are On
[IMG] code is On
HTML code is Off
Trackbacks are On
Pingbacks are On
Refbacks are On

 
For the best viewing experience please update your browser to Google Chrome