me playing a little blues/fuse solo - Jemsite
Players & Bands, Music & Sounds, Tours & Jams, Lessons & Theory! Covers everything from discussing musicians, bands, music, albums, videos, local jams & sharing multimedia links (no illegal file sharing please).

Reply
 
LinkBack Thread Tools Display Modes
post #1 of 29 (permalink) Old 09-10-2003, 12:43 PM Thread Starter
 
Join Date: May 2003
Location: earth
Posts: 314
me playing a little blues/fuse solo

nothing special about this one

a track of half blues half fusion, and me playing the solo.

http://www.timerefresh.com/han/bloozNfuse.mp3

do a "save as"

anyways, i gotta run now.

p.s - anton, if you want the backign track click my msn button and ill send it your way

greetingz

david
hanban is offline  
Sponsored Links
Advertisement
 
post #2 of 29 (permalink) Old 09-10-2003, 01:38 PM
 
Join Date: Sep 2002
Location: Liverpool, UK
Posts: 740
damn dude , you floored me again!! , NICE stuff , fusion runs sounded really cool , allan holdsworthish
Anton is offline  
post #3 of 29 (permalink) Old 09-10-2003, 02:19 PM
 
Join Date: Sep 2002
Location: Liverpool, UK
Posts: 740
could you add me to msn dude : [email protected] , cause i cant see your msn button
Anton is offline  
post #4 of 29 (permalink) Old 09-10-2003, 04:09 PM
 
Join Date: Feb 2001
Location: Oxford, UK
Posts: 1,514
damn it man..... thats unreal!

been following your stuff that you have posted on this site... and each time you completely re-invent yourself! and this is another flawless example of brilliant playing!

I dont mean any offence, i just have to ask... are you nabbing these files from other sites, or from other guitarists, or are you really that good?

Steve
Devo is offline  
post #5 of 29 (permalink) Old 09-10-2003, 07:09 PM
 
Join Date: Dec 2000
Posts: 835
Man, that was very good.....very very good


u have some tastey Garsed moments in there
Carlo is offline  
post #6 of 29 (permalink) Old 09-11-2003, 09:47 AM Thread Starter
 
Join Date: May 2003
Location: earth
Posts: 314
Hey, Thanks guys for the compliments,, you are too kind!

Devo, you think i would admit if i stole that file and posted it here? "(kiddin' )

thanks for the feedback!
hanban is offline  
post #7 of 29 (permalink) Old 09-11-2003, 05:01 PM
 
Join Date: Jun 2003
Posts: 451
Flawless, laid back, soaring, singing,... just amazing! add me on msn dude!
Ralph khoury is offline  
post #8 of 29 (permalink) Old 09-12-2003, 08:51 AM
 
Join Date: Nov 2002
Location: Rotterdam, The Netherlands (Europe)
Posts: 199
Reviews: 2
WOW!!! And finally some of your own stuff too, I was waiting for that a LONG time man. This sounds amazing, I knew you were talented but this is far beyond what I imagined. This is a flawless piece of blues!

Those runs sound just amazing, and some of them are really fast. How did you learn to play blues like that? I really want to learn to play like that.

Your sound is amazing too, it's not the digitech isn't it? Well, I've put this song on Future G of course: www.future-g.tk in case you didn't check it yet.
Predator is offline  
post #9 of 29 (permalink) Old 09-12-2003, 09:20 AM
 
Join Date: Jan 2002
Location: Toronto, Canada
Posts: 1,236
Man oh man, you sure can play dude....

What's stumbling me is how you flat out just sound like a master regardless of what genre you play.

You play country, you sound like you've been doing it for 30 years...you play blues, you sound like Lane on steroids, the list goes on.

So let me get this straight, your in highschool????

Jumping Jesus and Mary....

I know you're around here alot, can you quickly tab out the run you did at 1:05 - 1:17, even if you can only type in digits right here at the forum on a post, that's okay, I don't mind...that's one run I'd like to learn pronto.
davester1234 is offline  
post #10 of 29 (permalink) Old 09-12-2003, 10:59 AM Thread Starter
 
Join Date: May 2003
Location: earth
Posts: 314
hey dave, thanks for the compliment man, appreciate it!

im done with highschool im 20 hehe

here is the part you want tabbed:

--14bu(15x15)14-13-12-11-14-12-11-10-11-12-10--12-9-10-9-----
--x----------------------------------------------------------
--x----------------------------------------------------------
--x----------------------------------------------------------
-------------------------------------------------------------
-------------------------------------------------------------

just pick the first note here (the bend up of 14)


-8-9-----------------------------------------------------------------
-----10-8----10-------------------5---7-5--------------------------
------------9-----8/7----7/5---6----6------5-6--{6----------------
-----------------------10--------------------------{--7---------------
----------------------------------------------------{---7/5-----------
----------------------------------------------------{----------------

{ = sweep down

-------------------------------------------------------------------
------------------6-8-5-6----5-----------------------------------
--------7----5-7-----------7---5----------------------4/5---------
---5-6----6-----------------------6-5----8-5-6--7-8-------6-5---
-8-------------------------------------8---------------------------8-
--------------------------------------------------------------------

-------------------------------------------------------------------5------
---------------------------------------------------------5----5/7-----7--
-5---------------------------------------2--4------4/6----6-------------
----6-5--3-5-3-2---2---------2----4-2--------2------------------------
-------------------5----5-3-4----4--------------------------------------
---------------------------------------------------------------------------


-8~(slide)9--5----------------------------------------------------
-----------------8--5----------------------------------------------
-----------------------7--5-----5--6------------------------------
------------------------------7--------5---------------------------
-------------------------------------------------------------------
-------------------------------------------------------------------

david
hanban is offline  
post #11 of 29 (permalink) Old 09-12-2003, 11:02 AM
 
Join Date: Jan 2002
Location: Toronto, Canada
Posts: 1,236
you some kinda freaky boy!!!

Cool.
davester1234 is offline  
post #12 of 29 (permalink) Old 09-12-2003, 11:07 AM Thread Starter
 
Join Date: May 2003
Location: earth
Posts: 314
Quote:
Originally Posted by davester1234
you some kinda freaky boy!!!

Cool.
damn its messed up, wait im editing it

edit: ok its done. should be ok now
hanban is offline  
post #13 of 29 (permalink) Old 09-12-2003, 11:46 AM
 
Join Date: Feb 2002
Location: New Hampshire
Posts: 231
Quote:
Originally Posted by davester1234
you some kinda freaky boy!!!
High praise indeed! Couldn't agree more.

Hanban,
I too have created my own folder of your work and I'm in awe of it.

I've been playing for way too long and sound anemic compared to your stuff!!

Keep it coming. Covers, originals, acoustic, mandolin, sitar, whatever you can get your hands on!

Thanks for the Friday lift!
Guy
Entropy is offline  
post #14 of 29 (permalink) Old 09-12-2003, 11:57 AM
 
Join Date: Nov 2001
Posts: 551
Nice one once agauin han man!
Al M is offline  
post #15 of 29 (permalink) Old 09-13-2003, 04:07 AM
 
Join Date: Nov 2002
Location: Rotterdam, The Netherlands (Europe)
Posts: 199
Reviews: 2
I'm building an altar in your name man..
Predator is offline  
Reply

Tags
allan holdsworth

Quick Reply
Message:
Options

Register Now



In order to be able to post messages on the Jemsite forums, you must first register.
Please enter your desired user name, your email address and other required details in the form below.

User Name:
Password
Please enter a password for your user account. Note that passwords are case-sensitive.

Password:


Confirm Password:
Email Address

IMPORTANT: You will be required to activate your account so please ensure that your email address is correct.

If you do not receive your activation check your spam folder before using the CONTACT US form (at the bottom right of each page).



Email Address:
OR

Log-in











Thread Tools
Show Printable Version Show Printable Version
Email this Page Email this Page
Display Modes
Linear Mode Linear Mode



Similar Threads
Thread Thread Starter Forum Replies Last Post
Blues-rock guitar solo in 7/8? (And free backing track) JonasTamas Players & Bands, Music & Sounds, Tours & Jams, Lessons & Theory! 0 04-15-2010 04:33 PM
Me playing Red House blues rub_800 Players & Bands, Music & Sounds, Tours & Jams, Lessons & Theory! 2 06-13-2008 04:37 PM
Darth Vader playing the blues. Moibanez Players & Bands, Music & Sounds, Tours & Jams, Lessons & Theory! 1 10-18-2007 04:33 PM
Me playing a Dream Theater solo... twooos Players & Bands, Music & Sounds, Tours & Jams, Lessons & Theory! 4 06-24-2007 06:25 PM
me playing a little funky blues thing hanban Players & Bands, Music & Sounds, Tours & Jams, Lessons & Theory! 34 05-21-2004 06:24 AM

Posting Rules  
You may post new threads
You may post replies
You may not post attachments
You may not edit your posts

BB code is On
Smilies are On
[IMG] code is On
HTML code is Off
Trackbacks are On
Pingbacks are On
Refbacks are On

 
For the best viewing experience please update your browser to Google Chrome