Please take a look at this solo I tabbed - The Wind Cries Ma - Jemsite
Players & Bands, Music & Sounds, Tours & Jams, Lessons & Theory! Covers everything from discussing musicians, bands, music, albums, videos, local jams & sharing multimedia links (no illegal file sharing please).

 
LinkBack Thread Tools Display Modes
post #1 of 1 (permalink) Old 06-21-2001, 11:15 AM Thread Starter
 
Join Date: Dec 2000
Posts: 104
Please take a look at this solo I tabbed - The Wind Cries Ma

I need some advice/help from people who play this song. *The first part agrees with the OLGA version, but that must be a live version and I am trying to learn the studio one. *I am not sure about measures 4 through 6 (measures here are just musical phrases, not time measures). *Since the song is in F (or else D minor / D Aeolian), I used the three F major scale patterns around the 12th fret (G, E and D forms) for the notes that I couldn't quite figure out. *thanks!

Cut and paste and use a Courier font to make things line up.


* * * * * * * * * * * * * * * * * * * * * * * * * * * * * * * * * * * * * * * * *
E--------13--\---------------------------------------------------------------|----
B--------13--\--13-----------------------------------------------------------|----
G---------------12--14--12------12-----12h14p12------------------------------|----
D---------------------------15-------------------15---------15h17--15h17~~~--|----
A----------------------------------------------------15/17-------------------|----
E---/13----------------------------------------------------------------------|----
* * * * * * * * * * * * * * * * * * * * * * * * * * * * * * * * * * * * * * * * *

* * * * * * * * * * * * * * * * * * * * * * * * * * * * * * * * * * * * * * * * *
E---13--\----------------------------------------------------------------|--------
B---13--\--13------------------------------------------------------------|--------
G----------12--14--12------12--------------------------------------------|--------
D----------------------15----------------15--17--15~~~--15h17------------|--------
A---------------------------------15/17------------------------15h17~~~--|--------
E------------------------------------------------------------------------|--------
* * * * * * * * * * * * * * * * * * * * * * * * * * * * * * * * * * * * * * * * *

* * * * * * * * * * * * * * * * * * * * * * * * * * * * * * * * * * * * * * * * *
E---13--\-------------------------------------------------|-----------------------
B---13--\--13---------------------------------------------|-----------------------
G----------12--14--12------12-----------------------------|-----------------------
D----------------------15----------------15h17------------|-----------------------
A---------------------------------15/17---------15h17~~~--|-----------------------
E---------------------------------------------------------|-----------------------
* * * * * * * * * * * * * * * * * * * * * * * * * * * * * * * * * * * * * * * * *

* * * * * * * * * * * * * * * * * * * * * * * * * * * * * * * * * * * * * * * * *
E---15-----15-------------------------------------------|-------------------------
B---15h17--15--------15--------------15-----15----------|-------------------------
G--------------------15--17--15------15h17--15h17\------|-------------------------
D--------------------------------15---------------------|-------------------------
A-------------------------------------------------------|-------------------------
E-------------------------------------------------------|-------------------------
* * * * * * * * * * * * * * * * * * * * * * * * * * * * * * * * * * * * * * * * *

* * * * * * * * * * * * * * * * * * * * * * * * * * * * * * * * * * * * * * * * *
E-------------------------------------------------|-------------------------------
B-------------------------------------------------|-------------------------------
G----------15-----15------------------------------|-------------------------------
D----------15h17--15~~~---------------------------|-------------------------------
A---15h17----------------17/19--19--19--19\17~~~--|-------------------------------
E-------------------------------------------------|-------------------------------
* * * * * * * * * * * * * * * * * * * * * * * * * * * * * * * * * * * * * * * * *
bend 1/2 * bend 1
E--------13--10-----------10-------------|----------------------------------------
B---13^---------------10------10---------|----------------------------------------
G----------------12^--------------10~~~--|----------------------------------------
D----------------------------------------|----------------------------------------
A----------------------------------------|----------------------------------------
E----------------------------------------|----------------------------------------
* * * * * * * * * * * * * * * * * * * * * * * * * * * * * * * * * * * * * * * * *

* * * * * * * * * * * * * * * * * * * * * * * * * * * * * * * * * * * * * * * * *
E---13-----13------------------------------|--------------------------------------
B---13h15--13--13--------------13----------|--------------------------------------
G--------------12--14--12------12--14--12--|----------10--------------------------
D--------------------------15--------------|--10--12------12--10------------------
A------------------------------------------|----------------------13--12~~~\------
E------------------------------------------|--------------------------------------
* * * * * * * * * * * * * * * * * * * * * * * * * * * * * * * * * * * * * * * * *



(Edited by ashlock at 1:17 pm on June 21, 2001)


(Edited by ashlock at 2:24 pm on June 22, 2001)
ashlock is offline  
Sponsored Links
Advertisement
 
Reply

Quick Reply
Message:
Options

Register Now



In order to be able to post messages on the Jemsite forums, you must first register.
Please enter your desired user name, your email address and other required details in the form below.

User Name:
Password
Please enter a password for your user account. Note that passwords are case-sensitive.

Password:


Confirm Password:
Email Address

IMPORTANT: You will be required to activate your account so please ensure that your email address is correct.

If you do not receive your activation check your spam folder before using the CONTACT US form (at the bottom right of each page).



Email Address:
OR

Log-in











Thread Tools
Show Printable Version Show Printable Version
Email this Page Email this Page
Display Modes
Linear Mode Linear Mode



Similar Threads
Thread Thread Starter Forum Replies Last Post
Walking on the Ceiling's "Caught in the Wind" DownHomeRock Players & Bands, Music & Sounds, Tours & Jams, Lessons & Theory! 0 03-26-2013 01:34 PM
Playing One of my songs Desert wind on the jackson Rab Players & Bands, Music & Sounds, Tours & Jams, Lessons & Theory! 2 10-27-2010 07:05 PM
ever wind your own pickups? ibanezcollector Pickups & wiring 12 02-21-2006 11:20 PM
My video of Dream Theater's As I Am solo (first 15 seconds) + Offspring's TKAA solo Jebus Players & Bands, Music & Sounds, Tours & Jams, Lessons & Theory! 7 02-07-2006 12:07 AM
My solo over Virgil's solo matejsu Players & Bands, Music & Sounds, Tours & Jams, Lessons & Theory! 6 08-22-2004 06:28 PM

Posting Rules  
You may post new threads
You may post replies
You may not post attachments
You may not edit your posts

BB code is On
Smilies are On
[IMG] code is On
HTML code is Off
Trackbacks are On
Pingbacks are On
Refbacks are On

 
For the best viewing experience please update your browser to Google Chrome